Chord Guns N' Roses : Sweet Child O'Mine

Intro: ( D C G D ) 2x


Intro to Sweet Child O' Mine by Guns N Roses
All strings tuned down 1/2 semitone:


X2 x2
Eb--------------15----14---|--------------15----14---|----
Bb-----15------------------|-----15------------------|----
Gb--------14-12----14----14|--------14-12----14----14|----
Db--12---------------------|--14---------------------|----
Ab-------------------------|-------------------------|----
Eb-------------------------|-------------------------|----


X2 x2
Eb--------------15----14---|--------------15----14---|
Bb-----15------------------|-----15------------------|
Gb--12----14-12----14----14|--------14-12----14----14|
Db-------------------------|--12---------------------|
Ab-------------------------|-------------------------|
Eb-------------------------|-------------------------|


Repeat above x2 then...


X2 x2
Eb--------------15----14---|--------------15----14---|----
Bb-----15------------------|-----15------------------|----
Gb--------14-12----14----14|--------14-12----14----14|----
Db--12---------------------|--14---------------------|----
Ab-------------------------|-------------------------|----
Eb-------------------------|-------------------------|----


Eb--------------15----14---|--12------12--14--15--14--12-----|
Bb-----15------------------|------15----------------------15-|
Gb--12----14-12----14----14|----14--14--14--14--14--14--14---|
Db-------------------------|---------------------------------|
Ab-------------------------|---------------------------------|
Eb-------------------------|---------------------------------|


D
She's got smile that it seems to me
C
reminds me of childhood memories,
G D
Where everything was as fresh as the bright blue sky
D
Now and then When I see her face
C
she takes me away to that special place,
G
and if I stay there too long,
D
I'd probably break down and cry




: A5 C5 D5
:Woah, woah, woah, sweet child o' mine
: A5 C5 D5
:Woah, oh, oh, oh, sweet love o' mine


(Solo 1) -> Base
( D C G )


D
She's got eyes of the bluest skies,
C
as if they thought of rain
G
I hate to look into those eyes
D
and see anounce of pain
D
Her hair reminds me of a warm safe place
C
where as a child I'd hide,
G
And pray for the thunder and the rain
D
to quietly pass me by




: A5 C5 D5
:Woah, woah, woah, sweet child o' mine
: A5 C5 D5
:Woah, oh, oh, oh, sweet love o' mine


(Solo 2) -> Base
( D C G )


: A5 C5 D5
:Woah, oh, oh, oh, sweet child o' mine
: A5 C5 D5
:Woah, oh, oh, oh, sweet love o' mine
: A5 C5 D5
:Woah, oh, oh, oh, sweet child o' mine
: A5 C5 D5
:Woah, oh, oh, oh, sweet love o' mine


(Solo 3) -> Base
( Em C B A ) 4x ( Em G A C D ) 4x


Em G5
Where do we go? Where do we go now?
A5 C5 D5
Where do we go?
Em G5
Where do we go? Where do we go?
A5 C5 D5
Where do we go now?
Em G5
Where do we go? Sweet child, where do we go now?
A5 C5 D5
Where do we go?
Em G5
Where do we go? Where do we go now?
A5 C5 D5
Where do we go?
Em G5
Where do we go? Where do we go?
A5 C5 D5
Where do we go now?




E5 D5 B5 A5 G5 F#5 Em
No, no, no, no, no, no, no
G5 A5 C5 D5 Em
Sweet child, sweet chiiilldddd of of mine

0 coment:

Poskan Komentar

Blog ku Dofollow para sobat, jadi silahkan berkomentar di blog ku untuk dapat backlink ^^ U Comment I Follow,
Ingat : NO SPAM ! , NO PORN !
Bagi yang tidak mempunyai blog, masukkan nama serta link profil facebook anda...